  0
SECTION
  2
HEADER
  9
$ACADVER
  1
AC1015
  9
$ACADMAINTVER
 70
     6
  9
$DWGCODEPAGE
  3
ANSI_1254
  9
$INSBASE
 10
0.0
 20
0.0
 30
0.0
  9
$EXTMIN
 10
0.0
 20
0.0
 30
0.0
  9
$EXTMAX
 10
279.4
 20
215.9
 30
0.0
  9
$LIMMIN
 10
0.0
 20
0.0
  9
$LIMMAX
 10
279.4
 20
215.9
  9
$ORTHOMODE
 70
     0
  9
$REGENMODE
 70
     1
  9
$FILLMODE
 70
     1
  9
$QTEXTMODE
 70
     0
  9
$MIRRTEXT
 70
     1
  9
$LTSCALE
 40
1.0
  9
$ATTMODE
 70
     1
  9
$TEXTSIZE
 40
3.5
  9
$TRACEWID
 40
1.0
  9
$TEXTSTYLE
  7
Standard
  9
$CLAYER
  8
0
  9
$CELTYPE
  6
ByLayer
  9
$CECOLOR
 62
   256
  9
$CELTSCALE
 40
1.0
  9
$DISPSILH
 70
     0
  9
$DIMSCALE
 40
1.0
  9
$DIMASZ
 40
3.5
  9
$DIMEXO
 40
1.0
  9
$DIMDLI
 40
3.75
  9
$DIMRND
 40
0.0
  9
$DIMDLE
 40
0.0
  9
$DIMEXE
 40
1.0
  9
$DIMTP
 40
0.0
  9
$DIMTM
 40
0.0
  9
$DIMTXT
 40
3.5
  9
$DIMCEN
 40
2.5
  9
$DIMTSZ
 40
0.0
  9
$DIMTOL
 70
     0
  9
$DIMLIM
 70
     0
  9
$DIMTIH
 70
     1
  9
$DIMTOH
 70
     1
  9
$DIMSE1
 70
     0
  9
$DIMSE2
 70
     0
  9
$DIMTAD
 70
     1
  9
$DIMZIN
 70
     0
  9
$DIMBLK
  1

  9
$DIMASO
 70
     1
  9
$DIMSHO
 70
     1
  9
$DIMPOST
  1

  9
$DIMAPOST
  1

  9
$DIMALT
 70
     0
  9
$DIMALTD
 70
     3
  9
$DIMALTF
 40
0.0393700787
  9
$DIMLFAC
 40
1.0
  9
$DIMTOFL
 70
     1
  9
$DIMTVP
 40
0.0
  9
$DIMTIX
 70
     0
  9
$DIMSOXD
 70
     0
  9
$DIMSAH
 70
     0
  9
$DIMBLK1
  1

  9
$DIMBLK2
  1

  9
$DIMSTYLE
  2
ISO-25
  9
$DIMCLRD
 70
     0
  9
$DIMCLRE
 70
     0
  9
$DIMCLRT
 70
     0
  9
$DIMTFAC
 40
1.0
  9
$DIMGAP
 40
1.524
  9
$DIMJUST
 70
     0
  9
$DIMSD1
 70
     0
  9
$DIMSD2
 70
     0
  9
$DIMTOLJ
 70
     0
  9
$DIMTZIN
 70
     0
  9
$DIMALTZ
 70
     0
  9
$DIMALTTZ
 70
     0
  9
$DIMUPT
 70
     0
  9
$DIMDEC
 70
     2
  9
$DIMTDEC
 70
     2
  9
$DIMALTU
 70
     2
  9
$DIMALTTD
 70
     3
  9
$DIMTXSTY
  7
Standard
  9
$DIMAUNIT
 70
     0
  9
$DIMADEC
 70
     2
  9
$DIMALTRND
 40
0.0
  9
$DIMAZIN
 70
     0
  9
$DIMDSEP
 70
    44
  9
$DIMATFIT
 70
     3
  9
$DIMFRAC
 70
     0
  9
$DIMLDRBLK
  1

  9
$DIMLUNIT
 70
     2
  9
$DIMLWD
 70
    -2
  9
$DIMLWE
 70
    -2
  9
$DIMTMOVE
 70
     0
  9
$LUNITS
 70
     2
  9
$LUPREC
 70
     2
  9
$SKETCHINC
 40
1.0
  9
$FILLETRAD
 40
10.0
  9
$AUNITS
 70
     0
  9
$AUPREC
 70
     2
  9
$MENU
  1
.
  9
$ELEVATION
 40
0.0
  9
$PELEVATION
 40
0.0
  9
$THICKNESS
 40
0.0
  9
$LIMCHECK
 70
     0
  9
$CHAMFERA
 40
0.0
  9
$CHAMFERB
 40
0.0
  9
$CHAMFERC
 40
0.0
  9
$CHAMFERD
 40
0.0
  9
$SKPOLY
 70
     0
  9
$TDCREATE
 40
2458985.682883136
  9
$TDUCREATE
 40
2458985.557883136
  9
$TDUPDATE
 40
2458985.682883519
  9
$TDUUPDATE
 40
2458985.557883519
  9
$TDINDWG
 40
0.0000000116
  9
$TDUSRTIMER
 40
0.0000000116
  9
$USRTIMER
 70
     1
  9
$ANGBASE
 50
0.0
  9
$ANGDIR
 70
     0
  9
$PDMODE
 70
     0
  9
$PDSIZE
 40
-1.0
  9
$PLINEWID
 40
0.0
  9
$SPLFRAME
 70
     0
  9
$SPLINETYPE
 70
     6
  9
$SPLINESEGS
 70
     8
  9
$HANDSEED
  5
CB
  9
$SURFTAB1
 70
     6
  9
$SURFTAB2
 70
     6
  9
$SURFTYPE
 70
     6
  9
$SURFU
 70
     6
  9
$SURFV
 70
     6
  9
$UCSBASE
  2

  9
$UCSNAME
  2

  9
$UCSORG
 10
0.0
 20
0.0
 30
0.0
  9
$UCSXDIR
 10
1.0
 20
0.0
 30
0.0
  9
$UCSYDIR
 10
0.0
 20
1.0
 30
0.0
  9
$UCSORTHOREF
  2

  9
$UCSORTHOVIEW
 70
     0
  9
$UCSORGTOP
 10
0.0
 20
0.0
 30
0.0
  9
$UCSORGBOTTOM
 10
0.0
 20
0.0
 30
0.0
  9
$UCSORGLEFT
 10
0.0
 20
0.0
 30
0.0
  9
$UCSORGRIGHT
 10
0.0
 20
0.0
 30
0.0
  9
$UCSORGFRONT
 10
0.0
 20
0.0
 30
0.0
  9
$UCSORGBACK
 10
0.0
 20
0.0
 30
0.0
  9
$PUCSBASE
  2

  9
$PUCSNAME
  2

  9
$PUCSORG
 10
0.0
 20
0.0
 30
0.0
  9
$PUCSXDIR
 10
1.0
 20
0.0
 30
0.0
  9
$PUCSYDIR
 10
0.0
 20
1.0
 30
0.0
  9
$PUCSORTHOREF
  2

  9
$PUCSORTHOVIEW
 70
     0
  9
$PUCSORGTOP
 10
0.0
 20
0.0
 30
0.0
  9
$PUCSORGBOTTOM
 10
0.0
 20
0.0
 30
0.0
  9
$PUCSORGLEFT
 10
0.0
 20
0.0
 30
0.0
  9
$PUCSORGRIGHT
 10
0.0
 20
0.0
 30
0.0
  9
$PUCSORGFRONT
 10
0.0
 20
0.0
 30
0.0
  9
$PUCSORGBACK
 10
0.0
 20
0.0
 30
0.0
  9
$USERI1
 70
     0
  9
$USERI2
 70
     0
  9
$USERI3
 70
     0
  9
$USERI4
 70
     0
  9
$USERI5
 70
     0
  9
$USERR1
 40
0.0
  9
$USERR2
 40
0.0
  9
$USERR3
 40
0.0
  9
$USERR4
 40
0.0
  9
$USERR5
 40
0.0
  9
$WORLDVIEW
 70
     1
  9
$SHADEDGE
 70
     3
  9
$SHADEDIF
 70
    70
  9
$TILEMODE
 70
     1
  9
$MAXACTVP
 70
    64
  9
$PINSBASE
 10
0.0
 20
0.0
 30
0.0
  9
$PLIMCHECK
 70
     0
  9
$PEXTMIN
 10
1.0000000000E+20
 20
1.0000000000E+20
 30
1.0000000000E+20
  9
$PEXTMAX
 10
-1.0000000000E+20
 20
-1.0000000000E+20
 30
-1.0000000000E+20
  9
$PLIMMIN
 10
0.0
 20
0.0
  9
$PLIMMAX
 10
420.0
 20
297.0
  9
$UNITMODE
 70
     0
  9
$VISRETAIN
 70
     1
  9
$PLINEGEN
 70
     0
  9
$PSLTSCALE
 70
     1
  9
$TREEDEPTH
 70
  3020
  9
$CMLSTYLE
  2
Standard
  9
$CMLJUST
 70
     0
  9
$CMLSCALE
 40
20.0
  9
$PROXYGRAPHICS
 70
     1
  9
$MEASUREMENT
 70
     1
  9
$CELWEIGHT
370
    -1
  9
$ENDCAPS
280
     0
  9
$JOINSTYLE
280
     0
  9
$LWDISPLAY
290
     1
  9
$INSUNITS
 70
     4
  9
$HYPERLINKBASE
  1

  9
$STYLESHEET
  1

  9
$XEDIT
290
     1
  9
$CEPSNTYPE
380
     0
  9
$PSTYLEMODE
290
     1
  9
$FINGERPRINTGUID
  2
{51a595b0-5569-4e5f-be14-f781f52f7b53}
  9
$VERSIONGUID
  2
{FAEB1C32-E019-11D5-929B-00C0DF256EC4}
  9
$EXTNAMES
290
     1
  9
$PSVPSCALE
 40
0.0
  9
$OLESTARTUP
290
     0
  0
ENDSEC
  0
SECTION
  2
CLASSES
  0
CLASS
  1
ACDBDICTIONARYWDFLT
  2
AcDbDictionaryWithDefault
  3
ObjectDBX Classes
 90
        0
280
     0
281
     0
  0
CLASS
  1
VISUALSTYLE
  2
AcDbVisualStyle
  3
ObjectDBX Classes
 90
     4095
280
     0
281
     0
  0
CLASS
  1
MATERIAL
  2
AcDbMaterial
  3
ObjectDBX Classes
 90
     1153
280
     0
281
     0
  0
CLASS
  1
SCALE
  2
AcDbScale
  3
ObjectDBX Classes
 90
     1153
280
     0
281
     0
  0
CLASS
  1
TABLESTYLE
  2
AcDbTableStyle
  3
ObjectDBX Classes
 90
     4095
280
     0
281
     0
  0
CLASS
  1
MLEADERSTYLE
  2
AcDbMLeaderStyle
  3
ACDB_MLEADERSTYLE_CLASS
 90
     4095
280
     0
281
     0
  0
CLASS
  1
SUN
  2
AcDbSun
  3
SCENEOE
 90
     1153
280
     0
281
     0
  0
CLASS
  1
ACDBPLACEHOLDER
  2
AcDbPlaceHolder
  3
ObjectDBX Classes
 90
        0
280
     0
281
     0
  0
CLASS
  1
LAYOUT
  2
AcDbLayout
  3
ObjectDBX Classes
 90
        0
280
     0
281
     0
  0
ENDSEC
  0
SECTION
  2
TABLES
  0
TABLE
  2
VPORT
  5
8
330
0
100
AcDbSymbolTable
 70
     1
  0
VPORT
  5
29
330
8
100
AcDbSymbolTableRecord
100
AcDbViewportTableRecord
  2
*Active
 70
     0
 10
0.0
 20
0.0
 11
1.0
 21
1.0
 12
139.7
 22
107.95
 13
0.0
 23
0.0
 14
10.0
 24
10.0
 15
10.0
 25
10.0
 16
0.0
 26
0.0
 36
1.0
 17
0.0
 27
0.0
 37
0.0
 40
215.9
 41
1.2941176471
 42
50.0
 43
0.0
 44
0.0
 50
0.0
 51
0.0
 71
     0
 72
  2000
 73
     1
 74
     3
 75
     0
 76
     0
 77
     0
 78
     0
281
     0
 65
     1
110
0.0
120
0.0
130
0.0
111
1.0
121
0.0
131
0.0
112
0.0
122
1.0
132
0.0
 79
     0
146
0.0
  0
ENDTAB
  0
TABLE
  2
LTYPE
  5
5
330
0
100
AcDbSymbolTable
 70
     6
  0
LTYPE
  5
14
330
5
100
AcDbSymbolTableRecord
100
AcDbLinetypeTableRecord
  2
ByBlock
 70
     0
  3

 72
    65
 73
     0
 40
0.0
  0
LTYPE
  5
15
330
5
100
AcDbSymbolTableRecord
100
AcDbLinetypeTableRecord
  2
ByLayer
 70
     0
  3

 72
    65
 73
     0
 40
0.0
  0
LTYPE
  5
16
330
5
100
AcDbSymbolTableRecord
100
AcDbLinetypeTableRecord
  2
Continuous
 70
     0
  3
Solid line
 72
    65
 73
     0
 40
0.0
  0
LTYPE
  5
6E
330
5
100
AcDbSymbolTableRecord
100
AcDbLinetypeTableRecord
  2
HIDDEN
 70
     0
  3
Hidden __ __ __ __ __ __ __ __ __ __ __ __ __ __
 72
    65
 73
     2
 40
1.905
 49
1.27
 74
     0
 49
-0.635
 74
     0
  0
LTYPE
  5
6F
330
5
100
AcDbSymbolTableRecord
100
AcDbLinetypeTableRecord
  2
PHANTOM
 70
     0
  3
Phantom ______  __  __  ______  __  __  ______
 72
    65
 73
     6
 40
12.7
 49
6.35
 74
     0
 49
-1.27
 74
     0
 49
1.27
 74
     0
 49
-1.27
 74
     0
 49
1.27
 74
     0
 49
-1.27
 74
     0
  0
LTYPE
  5
70
330
5
100
AcDbSymbolTableRecord
100
AcDbLinetypeTableRecord
  2
CENTER
 70
     0
  3
Center ____ _ ____ _ ____ _ ____ _ ____ _ ____
 72
    65
 73
     4
 40
10.16
 49
6.35
 74
     0
 49
-1.27
 74
     0
 49
1.27
 74
     0
 49
-1.27
 74
     0
  0
LTYPE
  5
71
330
5
100
AcDbSymbolTableRecord
100
AcDbLinetypeTableRecord
  2
CENTERX2
 70
     0
  3
Center (2x) ________  __  ________  __  _____
 72
    65
 73
     4
 40
20.32
 49
12.7
 74
     0
 49
-2.54
 74
     0
 49
2.54
 74
     0
 49
-2.54
 74
     0
  0
LTYPE
  5
72
330
5
100
AcDbSymbolTableRecord
100
AcDbLinetypeTableRecord
  2
DOT2
 70
     0
  3
Dot (.5x) ........................................
 72
    65
 73
     2
 40
0.635
 49
0.0
 74
     0
 49
-0.635
 74
     0
  0
ENDTAB
  0
TABLE
  2
LAYER
  5
2
330
0
100
AcDbSymbolTable
 70
    17
  0
LAYER
  5
10
330
2
100
AcDbSymbolTableRecord
100
AcDbLayerTableRecord
  2
0
 70
     0
 62
     7
  6
Continuous
370
    -3
390
F
  0
LAYER
  5
73
330
2
100
AcDbSymbolTableRecord
100
AcDbLayerTableRecord
  2
FORMAT
 70
     0
 62
     7
  6
Continuous
370
    -3
390
F
  0
LAYER
  5
74
330
2
100
AcDbSymbolTableRecord
100
AcDbLayerTableRecord
  2
YARDIMCI_GEOMETRI
 70
     0
 62
    -6
  6
Continuous
290
     0
370
    -3
390
F
  0
LAYER
  5
75
330
2
100
AcDbSymbolTableRecord
100
AcDbLayerTableRecord
  2
SAYFA_CERCEVESI
 70
     0
 62
     7
  6
Continuous
370
    25
390
F
  0
LAYER
  5
76
330
2
100
AcDbSymbolTableRecord
100
AcDbLayerTableRecord
  2
ANTET
 70
     0
 62
     7
  6
Continuous
370
    -3
390
F
  0
LAYER
  5
77
330
2
100
AcDbSymbolTableRecord
100
AcDbLayerTableRecord
  2
OLCU
 70
     0
 62
   150
  6
Continuous
370
    -3
390
F
  0
LAYER
  5
78
330
2
100
AcDbSymbolTableRecord
100
AcDbLayerTableRecord
  2
METIN
 70
     0
 62
    96
  6
Continuous
370
    -3
390
F
  0
LAYER
  5
79
330
2
100
AcDbSymbolTableRecord
100
AcDbLayerTableRecord
  2
BALON
 70
     0
 62
     5
  6
Continuous
370
    -3
390
F
  0
LAYER
  5
7A
330
2
100
AcDbSymbolTableRecord
100
AcDbLayerTableRecord
  2
VURGU
 70
     0
 62
     7
  6
Continuous
370
    -3
390
F
  0
LAYER
  5
7B
330
2
100
AcDbSymbolTableRecord
100
AcDbLayerTableRecord
  2
SILIK
 70
     0
 62
     7
  6
Continuous
370
    -3
390
F
  0
LAYER
  5
7C
330
2
100
AcDbSymbolTableRecord
100
AcDbLayerTableRecord
  2
MODEL
 70
     0
 62
     7
  6
Continuous
370
    -3
390
F
  0
LAYER
  5
7D
330
2
100
AcDbSymbolTableRecord
100
AcDbLayerTableRecord
  2
DETAYLANDıRMA
 70
     0
 62
   190
  6
Continuous
370
    -3
390
F
  0
LAYER
  5
7E
330
2
100
AcDbSymbolTableRecord
100
AcDbLayerTableRecord
  2
TOLERANS
 70
     0
 62
   230
  6
Continuous
370
    -3
390
F
  0
LAYER
  5
7F
330
2
100
AcDbSymbolTableRecord
100
AcDbLayerTableRecord
  2
MERKEZ_CIZGILERI
 70
     0
 62
    30
  6
Continuous
370
    -3
390
F
  0
LAYER
  5
80
330
2
100
AcDbSymbolTableRecord
100
AcDbLayerTableRecord
  2
KESIT-DETAY_CIZGILERI
 70
     0
 62
     7
  6
Continuous
370
    -3
390
F
  0
LAYER
  5
81
330
2
100
AcDbSymbolTableRecord
100
AcDbLayerTableRecord
  2
\U+041E\U+0421\U+0415\U+0412\U+042B\U+0415
 70
     0
 62
     7
  6
Continuous
370
    -3
390
F
  0
LAYER
  5
82
330
2
100
AcDbSymbolTableRecord
100
AcDbLayerTableRecord
  2
\U+0412\U+041E\U+0414\U+042F\U+041D\U+042B\U+0415_\U+0417\U+041D\U+0410\U+041A\U+0418
 70
     0
 62
    11
  6
Continuous
370
    -3
390
F
  0
ENDTAB
  0
TABLE
  2
STYLE
  5
3
330
0
100
AcDbSymbolTable
 70
     1
  0
STYLE
  5
11
330
3
100
AcDbSymbolTableRecord
100
AcDbTextStyleTableRecord
  2
Standard
 70
     0
 40
0.0
 41
1.0
 50
0.0
 71
     0
 42
3.5
  3
txt
  4

  0
ENDTAB
  0
TABLE
  2
VIEW
  5
6
330
0
100
AcDbSymbolTable
 70
     0
  0
ENDTAB
  0
TABLE
  2
UCS
  5
7
330
0
100
AcDbSymbolTable
 70
     0
  0
ENDTAB
  0
TABLE
  2
APPID
  5
9
330
0
100
AcDbSymbolTable
 70
     1
  0
APPID
  5
12
330
9
100
AcDbSymbolTableRecord
100
AcDbRegAppTableRecord
  2
ACAD
 70
     0
  0
ENDTAB
  0
TABLE
  2
DIMSTYLE
  5
A
330
0
100
AcDbSymbolTable
 70
     1
100
AcDbDimStyleTable
  0
DIMSTYLE
105
27
330
A
100
AcDbSymbolTableRecord
100
AcDbDimStyleTableRecord
  2
ISO-25
 70
     0
 41
2.5
 42
0.625
 43
3.75
 44
1.25
 73
     0
 74
     0
 77
     1
 78
     8
140
2.5
141
2.5
143
0.0393700787
147
0.625
171
     3
172
     1
178
     0
271
     2
272
     2
274
     3
278
    44
283
     0
284
     8
340
11
  0
ENDTAB
  0
TABLE
  2
BLOCK_RECORD
  5
1
330
0
100
AcDbSymbolTable
 70
     3
  0
BLOCK_RECORD
  5
1F
330
1
100
AcDbSymbolTableRecord
100
AcDbBlockTableRecord
  2
*Model_Space
340
22
  0
BLOCK_RECORD
  5
1B
330
1
100
AcDbSymbolTableRecord
100
AcDbBlockTableRecord
  2
*Paper_Space
340
1E
  0
BLOCK_RECORD
  5
23
330
1
100
AcDbSymbolTableRecord
100
AcDbBlockTableRecord
  2
*Paper_Space0
340
26
  0
BLOCK_RECORD
  5
88
330
1
100
AcDbSymbolTableRecord
100
AcDbBlockTableRecord
  2
SW_CENTERMARKSYMBOL_0
340
0
102
{BLKREFS
331
93
102
}
  0
BLOCK_RECORD
  5
B2
330
1
100
AcDbSymbolTableRecord
100
AcDbBlockTableRecord
  2
SW_CENTERMARKSYMBOL_1
340
0
102
{BLKREFS
331
BD
102
}
  0
ENDTAB
  0
ENDSEC
  0
SECTION
  2
BLOCKS
  0
BLOCK
  5
20
330
1F
100
AcDbEntity
  8
0
100
AcDbBlockBegin
  2
*Model_Space
 70
     0
 10
0.0
 20
0.0
 30
0.0
  3
*Model_Space
  1

  0
ENDBLK
  5
21
330
1F
100
AcDbEntity
  8
0
100
AcDbBlockEnd
  0
BLOCK
  5
1C
330
1B
100
AcDbEntity
 67
     1
  8
0
100
AcDbBlockBegin
  2
*Paper_Space
 70
     0
 10
0.0
 20
0.0
 30
0.0
  3
*Paper_Space
  1

  0
ENDBLK
  5
1D
330
1B
100
AcDbEntity
 67
     1
  8
0
100
AcDbBlockEnd
  0
BLOCK
  5
24
330
23
100
AcDbEntity
  8
0
100
AcDbBlockBegin
  2
*Paper_Space0
 70
     0
 10
0.0
 20
0.0
 30
0.0
  3
*Paper_Space0
  1

  0
ENDBLK
  5
25
330
23
100
AcDbEntity
  8
0
100
AcDbBlockEnd
  0
BLOCK
  5
89
330
88
100
AcDbEntity
  8
0
100
AcDbBlockBegin
  2
SW_CENTERMARKSYMBOL_0
 70
     0
 10
0.0
 20
0.0
 30
0.0
  3
SW_CENTERMARKSYMBOL_0
  1

  0
LINE
  5
8B
330
88
100
AcDbEntity
  8
FORMAT
 62
     0
100
AcDbLine
 10
0.0
 20
0.0
 30
0.0
 11
0.0
 21
2.5
 31
0.0
  0
LINE
  5
8C
330
88
100
AcDbEntity
  8
FORMAT
 62
     0
100
AcDbLine
 10
0.0
 20
0.0
 30
0.0
 11
-2.5
 21
0.0
 31
0.0
  0
LINE
  5
8D
330
88
100
AcDbEntity
  8
FORMAT
 62
     0
100
AcDbLine
 10
0.0
 20
0.0
 30
0.0
 11
0.0
 21
-2.5
 31
0.0
  0
LINE
  5
8E
330
88
100
AcDbEntity
  8
FORMAT
 62
     0
100
AcDbLine
 10
0.0
 20
0.0
 30
0.0
 11
2.5
 21
0.0
 31
0.0
  0
LINE
  5
8F
330
88
100
AcDbEntity
  8
FORMAT
 62
     0
100
AcDbLine
 10
0.0
 20
5.0
 30
0.0
 11
0.0
 21
92.5
 31
0.0
  0
LINE
  5
90
330
88
100
AcDbEntity
  8
FORMAT
 62
     0
100
AcDbLine
 10
-5.0
 20
0.0
 30
0.0
 11
-92.5
 21
0.0
 31
0.0
  0
LINE
  5
91
330
88
100
AcDbEntity
  8
FORMAT
 62
     0
100
AcDbLine
 10
0.0
 20
-5.0
 30
0.0
 11
0.0
 21
-92.5
 31
0.0
  0
LINE
  5
92
330
88
100
AcDbEntity
  8
FORMAT
 62
     0
100
AcDbLine
 10
5.0
 20
0.0
 30
0.0
 11
92.5
 21
0.0
 31
0.0
  0
ENDBLK
  5
8A
330
88
100
AcDbEntity
  8
0
100
AcDbBlockEnd
  0
BLOCK
  5
B3
330
B2
100
AcDbEntity
  8
0
100
AcDbBlockBegin
  2
SW_CENTERMARKSYMBOL_1
 70
     0
 10
0.0
 20
0.0
 30
0.0
  3
SW_CENTERMARKSYMBOL_1
  1

  0
LINE
  5
B5
330
B2
100
AcDbEntity
  8
FORMAT
 62
     0
100
AcDbLine
 10
0.0
 20
0.0
 30
0.0
 11
0.0
 21
2.5
 31
0.0
  0
LINE
  5
B6
330
B2
100
AcDbEntity
  8
FORMAT
 62
     0
100
AcDbLine
 10
0.0
 20
0.0
 30
0.0
 11
-2.5
 21
0.0
 31
0.0
  0
LINE
  5
B7
330
B2
100
AcDbEntity
  8
FORMAT
 62
     0
100
AcDbLine
 10
0.0
 20
0.0
 30
0.0
 11
0.0
 21
-2.5
 31
0.0
  0
LINE
  5
B8
330
B2
100
AcDbEntity
  8
FORMAT
 62
     0
100
AcDbLine
 10
0.0
 20
0.0
 30
0.0
 11
2.5
 21
0.0
 31
0.0
  0
LINE
  5
B9
330
B2
100
AcDbEntity
  8
FORMAT
 62
     0
100
AcDbLine
 10
0.0
 20
5.0
 30
0.0
 11
0.0
 21
47.5
 31
0.0
  0
LINE
  5
BA
330
B2
100
AcDbEntity
  8
FORMAT
 62
     0
100
AcDbLine
 10
-5.0
 20
0.0
 30
0.0
 11
-47.5
 21
0.0
 31
0.0
  0
LINE
  5
BB
330
B2
100
AcDbEntity
  8
FORMAT
 62
     0
100
AcDbLine
 10
0.0
 20
-5.0
 30
0.0
 11
0.0
 21
-47.5
 31
0.0
  0
LINE
  5
BC
330
B2
100
AcDbEntity
  8
FORMAT
 62
     0
100
AcDbLine
 10
5.0
 20
0.0
 30
0.0
 11
47.5
 21
0.0
 31
0.0
  0
ENDBLK
  5
B4
330
B2
100
AcDbEntity
  8
0
100
AcDbBlockEnd
  0
ENDSEC
  0
SECTION
  2
ENTITIES
  0
LINE
  5
83
330
1F
100
AcDbEntity
  8
0
  6
Continuous
 62
     7
370
    25
100
AcDbLine
 10
160.1634498419
 20
62.2274616748
 30
0.0
 11
288.177724087
 21
62.2274616748
 31
0.0
  0
LINE
  5
84
330
1F
100
AcDbEntity
  8
0
  6
Continuous
 62
     7
370
    25
100
AcDbLine
 10
288.177724087
 20
152.2274616748
 30
0.0
 11
160.1606671979
 21
152.2274616748
 31
0.0
  0
CIRCLE
  5
85
330
1F
100
AcDbEntity
  8
0
  6
Continuous
 62
     7
370
    25
100
AcDbCircle
 10
82.177724087
 20
107.2274616748
 30
0.0
 40
73.6
  0
CIRCLE
  5
86
330
1F
100
AcDbEntity
  8
0
  6
Continuous
 62
     7
370
    25
100
AcDbCircle
 10
82.177724087
 20
107.2274616748
 30
0.0
 40
90.00000000000003
  0
LINE
  5
87
330
1F
100
AcDbEntity
  8
0
  6
Continuous
 62
     7
370
    25
100
AcDbLine
 10
288.177724087
 20
152.2274616748
 30
0.0
 11
288.177724087
 21
62.2274616748
 31
0.0
  0
INSERT
  5
93
330
1F
100
AcDbEntity
  8
FORMAT
100
AcDbBlockReference
  2
SW_CENTERMARKSYMBOL_0
 10
82.177724087
 20
107.2274616748
 30
0.0
  0
LINE
  5
94
330
1F
100
AcDbEntity
  8
0
  6
Continuous
 62
     7
370
    25
100
AcDbLine
 10
-7.822275913
 20
-49.8463867273
 30
0.0
 11
-7.822275913
 21
-507.8463867273
 31
0.0
  0
LINE
  5
95
330
1F
100
AcDbEntity
  8
0
  6
Continuous
 62
     7
370
    25
100
AcDbLine
 10
172.177724087
 20
-233.8726417049
 30
0.0
 11
172.177724087
 21
-49.8463867273
 31
0.0
  0
LINE
  5
96
330
1F
100
AcDbEntity
  8
0
  6
Continuous
 62
     7
370
    25
100
AcDbLine
 10
172.177724087
 20
-507.8463867273
 30
0.0
 11
172.177724087
 21
-323.8463867273
 31
0.0
  0
LINE
  5
97
330
1F
100
AcDbEntity
  8
0
  6
Continuous
 62
     7
370
    25
100
AcDbLine
 10
172.177724087
 20
-323.8463867273
 30
0.0
 11
288.177724087
 21
-323.8463867273
 31
0.0
  0
LINE
  5
98
330
1F
100
AcDbEntity
  8
0
  6
Continuous
 62
     7
370
    25
100
AcDbLine
 10
288.177724087
 20
-233.8463867273
 30
0.0
 11
172.1645293432
 21
-233.8463867273
 31
0.0
  0
SPLINE
  5
99
330
1F
100
AcDbEntity
  8
0
  6
Continuous
 62
     7
370
    25
100
AcDbSpline
210
0.0
220
0.0
230
1.0
 70
     8
 71
     3
 72
    34
 73
    30
 74
     0
 42
0.000000001
 43
0.00000001
 40
0.0
 40
0.0
 40
0.0
 40
0.0
 40
0.0054332966433074
 40
0.0316447469130853
 40
0.078499932701711
 40
0.126647994023492
 40
0.1749371725591426
 40
0.2243938579693386
 40
0.2773990823099485
 40
0.3317981820878574
 40
0.3594843409666373
 40
0.3871678866850111
 40
0.4158324990822508
 40
0.4444936177209575
 40
0.4944440115219188
 40
0.5203360727965749
 40
0.5462289452434695
 40
0.5916380828583143
 40
0.6382150608129464
 40
0.6867575970137918
 40
0.7364226218247646
 40
0.7907496857291063
 40
0.8187126638958062
 40
0.8466738318208115
 40
0.8739323641437544
 40
0.9011887975826691
 40
0.9294174375647382
 40
0.9576441328791515
 40
1.0
 40
1.0
 40
1.0
 40
1.0
 10
172.1645234998151
 20
-233.8726417048942
 30
0.0
 10
172.1685019350459
 20
-233.8646614920883
 30
0.0
 10
172.1916732404714
 20
-233.8181829301516
 30
0.0
 10
172.0444507669466
 20
-234.1131622286044
 30
0.0
 10
171.5583851331616
 20
-235.0906548825209
 30
0.0
 10
170.4938071561151
 20
-237.2943295183186
 30
0.0
 10
169.042355933759
 20
-240.454802490484
 30
0.0
 10
167.2749135526009
 20
-244.6047638747089
 30
0.0
 10
165.3075276631713
 20
-249.7759227250207
 30
0.0
 10
163.6629399880276
 20
-254.9131315483094
 30
0.0
 10
162.4749665117616
 20
-259.4436792296974
 30
0.0
 10
161.670365075585
 20
-263.0796696658012
 30
0.0
 10
160.9977132755473
 20
-266.9085041917742
 30
0.0
 10
160.3630875622227
 20
-271.8901148588241
 30
0.0
 10
160.0776652841693
 20
-276.8987710669149
 30
0.0
 10
160.1464468087655
 20
-281.7781010936416
 30
0.0
 10
160.4295697892268
 20
-286.4072903482329
 30
0.0
 10
161.1250100473613
 20
-291.9032750863678
 30
0.0
 10
162.3916564896595
 20
-298.1044282403052
 30
0.0
 10
164.0185125065729
 20
-304.0003983269356
 30
0.0
 10
165.9084542262767
 20
-309.5720352879271
 30
0.0
 10
167.5504853464274
 20
-313.7305098816195
 30
0.0
 10
168.8184923759093
 20
-316.6994259951028
 30
0.0
 10
169.6985750996006
 20
-318.6679210265105
 30
0.0
 10
170.4696797093731
 20
-320.3323023546914
 30
0.0
 10
171.1251659275146
 20
-321.7066997444451
 30
0.0
 10
171.6392010013178
 20
-322.762276783783
 30
0.0
 10
172.0742469003478
 20
-323.6400588183583
 30
0.0
 10
172.1389165173806
 20
-323.7690065341594
 30
0.0
 10
172.1777240870024
 20
-323.846386727334
 30
0.0
  0
LINE
  5
9A
330
1F
100
AcDbEntity
  8
0
  6
Continuous
 62
     7
370
    25
100
AcDbLine
 10
172.177724087
 20
-507.8463867273
 30
0.0
 11
-7.822275913
 21
-507.8463867273
 31
0.0
  0
LINE
  5
9B
330
1F
100
AcDbEntity
  8
0
  6
Continuous
 62
     7
370
    25
100
AcDbLine
 10
172.177724087
 20
-49.8463867273
 30
0.0
 11
-7.822275913
 21
-49.8463867273
 31
0.0
  0
LINE
  5
9C
330
1F
100
AcDbEntity
  8
0
  6
Continuous
 62
     7
370
    25
100
AcDbLine
 10
288.177724087
 20
-233.8463867273
 30
0.0
 11
288.177724087
 21
-323.8463867273
 31
0.0
  0
LINE
  5
9D
330
1F
100
AcDbEntity
  8
0
  6
Continuous
 62
     7
370
    25
100
AcDbLine
 10
172.177724087
 20
530.2853589789
 30
0.0
 11
172.177724087
 21
714.2853589789
 31
0.0
  0
LINE
  5
9E
330
1F
100
AcDbEntity
  8
0
  6
Continuous
 62
     7
370
    25
100
AcDbLine
 10
172.177724087
 20
256.2853589789
 30
0.0
 11
172.177724087
 21
440.3107384966
 31
0.0
  0
LINE
  5
9F
330
1F
100
AcDbEntity
  8
0
  6
Continuous
 62
     7
370
    25
100
AcDbLine
 10
-7.822275913
 20
714.2853589789
 30
0.0
 11
-7.822275913
 21
256.2853589789
 31
0.0
  0
LINE
  5
A0
330
1F
100
AcDbEntity
  8
0
  6
Continuous
 62
     7
370
    25
100
AcDbLine
 10
172.1650486284
 20
440.2853589789
 30
0.0
 11
288.177724087
 21
440.2853589789
 31
0.0
  0
LINE
  5
A1
330
1F
100
AcDbEntity
  8
0
  6
Continuous
 62
     7
370
    25
100
AcDbLine
 10
288.177724087
 20
530.2853589789
 30
0.0
 11
172.177724087
 21
530.2853589789
 31
0.0
  0
SPLINE
  5
A2
330
1F
100
AcDbEntity
  8
0
  6
Continuous
 62
     7
370
    25
100
AcDbSpline
210
0.0
220
0.0
230
1.0
 70
     8
 71
     3
 72
    33
 73
    29
 74
     0
 42
0.000000001
 43
0.00000001
 40
0.0
 40
0.0
 40
0.0
 40
0.0
 40
0.048634185872642
 40
0.0987769186667218
 40
0.1473875899199446
 40
0.1972619964226552
 40
0.2488569819372585
 40
0.301740557888992
 40
0.3293615648987918
 40
0.3571846658736184
 40
0.3856839952836372
 40
0.4144388812622875
 40
0.4403093684117078
 40
0.4664007127456044
 40
0.4932244209763373
 40
0.5203137711493225
 40
0.5662097019936702
 40
0.6133892892225099
 40
0.6604882546079927
 40
0.7086693846720438
 40
0.7616764815737902
 40
0.8160802420464492
 40
0.8436232437334084
 40
0.8713793212099401
 40
0.8998476531293966
 40
0.928581202406175
 40
0.9792210764866661
 40
1.0
 40
1.0
 40
1.0
 40
1.0
 10
172.1777240870024
 20
530.2853589788757
 30
0.0
 10
172.1247850367797
 20
530.1799514536194
 30
0.0
 10
172.0172648600908
 20
529.9658668470349
 30
0.0
 10
171.1729839443379
 20
528.2549119348365
 30
0.0
 10
169.9066554061514
 20
525.5828163630467
 30
0.0
 10
168.274989217816
 20
521.923981682763
 30
0.0
 10
166.387113309728
 20
517.2804076364615
 30
0.0
 10
164.7312589515601
 20
512.609379659762
 30
0.0
 10
163.4547893784106
 20
508.4013168397494
 30
0.0
 10
162.5381115125248
 20
504.9515849614166
 30
0.0
 10
161.7156011298902
 20
501.2809443674717
 30
0.0
 10
161.0492016263957
 20
497.5446254231322
 30
0.0
 10
160.5563028729609
 20
493.8056743764602
 30
0.0
 10
160.2369162220885
 20
490.0801317459515
 30
0.0
 10
160.0938041286347
 20
486.2507006308277
 30
0.0
 10
160.1534554848062
 20
481.4623932558677
 30
0.0
 10
160.6117626788438
 20
475.7489239527256
 30
0.0
 10
161.6525208023012
 20
469.355371861533
 30
0.0
 10
163.1016160610517
 20
463.2805872447514
 30
0.0
 10
164.8647102967269
 20
457.5113802953176
 30
0.0
 10
166.8202019318013
 20
452.1692979721748
 30
0.0
 10
168.443211813344
 20
448.280033430747
 30
0.0
 10
169.6147297314811
 20
445.6478267838773
 30
0.0
 10
170.4100651600431
 20
443.9260266912872
 30
0.0
 10
171.0923610328617
 20
442.4925572221085
 30
0.0
 10
171.7630713134389
 20
441.1153807985565
 30
0.0
 10
172.1421503789041
 20
440.3565648059912
 30
0.0
 10
172.1598834724288
 20
440.321066532574
 30
0.0
 10
172.1650428227178
 20
440.3107384966361
 30
0.0
  0
LINE
  5
A3
330
1F
100
AcDbEntity
  8
0
  6
Continuous
 62
     7
370
    25
100
AcDbLine
 10
-7.822275913
 20
714.2853589789
 30
0.0
 11
172.177724087
 21
714.2853589789
 31
0.0
  0
LINE
  5
A4
330
1F
100
AcDbEntity
  8
0
  6
Continuous
 62
     7
370
    25
100
AcDbLine
 10
-7.822275913
 20
256.2853589789
 30
0.0
 11
172.177724087
 21
256.2853589789
 31
0.0
  0
LINE
  5
A5
330
1F
100
AcDbEntity
  8
0
  6
Continuous
 62
     7
370
    25
100
AcDbLine
 10
288.177724087
 20
530.2853589789
 30
0.0
 11
288.177724087
 21
440.2853589789
 31
0.0
  0
LINE
  5
A6
330
1F
100
AcDbEntity
  8
0
  6
Continuous
 62
     7
370
    25
100
AcDbLine
 10
381.0123984871
 20
17.2274616748
 30
0.0
 11
839.0123984871
 21
17.2274616748
 31
0.0
  0
LINE
  5
A7
330
1F
100
AcDbEntity
  8
0
  6
Continuous
 62
     7
370
    25
100
AcDbLine
 10
839.0123984871
 20
197.2274616748
 30
0.0
 11
381.0123984871
 21
197.2274616748
 31
0.0
  0
LINE
  5
A8
330
1F
100
AcDbEntity
  8
0
  6
Continuous
 62
     7
370
    25
100
AcDbLine
 10
839.0123984871
 20
197.2274616748
 30
0.0
 11
839.0123984871
 21
17.2274616748
 31
0.0
  0
LINE
  5
A9
330
1F
100
AcDbEntity
  8
0
  6
Continuous
 62
     7
370
    25
100
AcDbLine
 10
381.0123984871
 20
197.2274616748
 30
0.0
 11
381.0123984871
 21
17.2274616748
 31
0.0
  0
LINE
  5
AA
330
1F
100
AcDbEntity
  8
0
  6
Continuous
 62
     7
370
    25
100
AcDbLine
 10
-77.742499415
 20
197.2274616748
 30
0.0
 11
-535.742499415
 21
197.2274616748
 31
0.0
  0
LINE
  5
AB
330
1F
100
AcDbEntity
  8
0
  6
Continuous
 62
     7
370
    25
100
AcDbLine
 10
-535.742499415
 20
17.2274616748
 30
0.0
 11
-77.742499415
 21
17.2274616748
 31
0.0
  0
CIRCLE
  5
AC
330
1F
100
AcDbEntity
  8
0
  6
Continuous
 62
     7
370
    25
100
AcDbCircle
 10
-306.742499415
 20
107.2274616748
 30
0.0
 40
36.80000000000001
  0
CIRCLE
  5
AD
330
1F
100
AcDbEntity
  8
0
  6
Continuous
 62
     7
370
    25
100
AcDbCircle
 10
-306.742499415
 20
107.2274616748
 30
0.0
 40
45.00000000000006
  0
LINE
  5
AE
330
1F
100
AcDbEntity
  8
0
  6
Continuous
 62
     7
370
    25
100
AcDbLine
 10
-535.742499415
 20
107.2274616748
 30
0.0
 11
-535.742499415
 21
197.2274616748
 31
0.0
  0
LINE
  5
AF
330
1F
100
AcDbEntity
  8
0
  6
Continuous
 62
     7
370
    25
100
AcDbLine
 10
-535.742499415
 20
17.2274616748
 30
0.0
 11
-535.742499415
 21
107.2274616748
 31
0.0
  0
LINE
  5
B0
330
1F
100
AcDbEntity
  8
0
  6
Continuous
 62
     7
370
    25
100
AcDbLine
 10
-77.742499415
 20
107.2274616748
 30
0.0
 11
-77.742499415
 21
197.2274616748
 31
0.0
  0
LINE
  5
B1
330
1F
100
AcDbEntity
  8
0
  6
Continuous
 62
     7
370
    25
100
AcDbLine
 10
-77.742499415
 20
17.2274616748
 30
0.0
 11
-77.742499415
 21
107.2274616748
 31
0.0
  0
INSERT
  5
BD
330
1F
100
AcDbEntity
  8
FORMAT
100
AcDbBlockReference
  2
SW_CENTERMARKSYMBOL_1
 10
-306.742499415
 20
107.2274616748
 30
0.0
  0
LINE
  5
BE
330
1F
100
AcDbEntity
  8
0
  6
Continuous
 62
     7
370
    25
100
AcDbLine
 10
802.7622927414
 20
-298.93330409
 30
0.0
 11
730.8494688668
 21
-257.4189145258
 31
0.0
  0
LINE
  5
BF
330
1F
100
AcDbEntity
  8
0
  6
Continuous
 62
     7
370
    25
100
AcDbLine
 10
640.8421542097
 20
-205.4587977764
 30
0.0
 11
478.907386958
 21
-111.9758464826
 31
0.0
  0
LINE
  5
C0
330
1F
100
AcDbEntity
  8
0
  6
Continuous
 62
     7
370
    25
100
AcDbLine
 10
388.9147010207
 20
-267.8646417111
 30
0.0
 11
712.7696068042
 21
-454.8220993185
 31
0.0
  0
LINE
  5
C1
330
1F
100
AcDbEntity
  8
0
  6
Continuous
 62
     7
370
    25
100
AcDbLine
 10
677.865325132
 20
-288.0060096393
 30
0.0
 11
764.0006652898
 21
-238.2811361899
 31
0.0
  0
LINE
  5
C2
330
1F
100
AcDbEntity
  8
0
  6
Continuous
 62
     7
370
    25
100
AcDbLine
 10
719.0043223212
 20
-160.3367385757
 30
0.0
 11
632.863083008
 21
-210.065017535
 31
0.0
  0
SPLINE
  5
C3
330
1F
100
AcDbEntity
  8
0
  6
Continuous
 62
     7
370
    25
100
AcDbSpline
210
0.0
220
0.0
230
1.0
 70
     8
 71
     3
 72
    26
 73
    22
 74
     0
 42
0.000000001
 43
0.00000001
 40
0.0
 40
0.0
 40
0.0
 40
0.0
 40
0.0648258594331238
 40
0.1316625030281021
 40
0.1964570191707863
 40
0.2629360031867174
 40
0.3317083948369539
 40
0.4021983845315581
 40
0.4390151932370132
 40
0.4761013786110408
 40
0.5140889276801296
 40
0.5524171152095535
 40
0.5869006072907514
 40
0.6216784860577498
 40
0.6574325530384161
 40
0.6935407015545086
 40
0.7547166646776355
 40
0.8176036491090956
 40
0.8803831704425119
 40
0.9446051391836031
 40
1.0
 40
1.0
 40
1.0
 40
1.0
 10
627.6583020344482
 20
-228.2914253525009
 30
0.0
 10
627.6954028489408
 20
-230.2612954082531
 30
0.0
 10
627.7707552799491
 20
-234.2621374248253
 30
0.0
 10
628.3835863399459
 20
-240.9042698614381
 30
0.0
 10
629.3776137420554
 20
-247.8226286123102
 30
0.0
 10
630.8110383297811
 20
-254.8908012941965
 30
0.0
 10
632.7596111684105
 20
-262.0288399941516
 30
0.0
 10
634.8916608863582
 20
-267.8650514008437
 30
0.0
 10
636.9646103385046
 20
-272.3639594845212
 30
0.0
 10
638.7557500468741
 20
-275.6699431314861
 30
0.0
 10
640.7696820822842
 20
-278.7994771487081
 30
0.0
 10
642.9404434878148
 20
-281.601105183002
 30
0.0
 10
645.2357472083842
 20
-284.0487213072832
 30
0.0
 10
647.6442701314888
 20
-286.1567593057612
 30
0.0
 10
650.2508645737639
 20
-287.9805812133814
 30
0.0
 10
653.679013896912
 20
-289.8267864739372
 30
0.0
 10
658.0423122753917
 20
-291.3207327700253
 30
0.0
 10
663.3025236266856
 20
-291.9732008056761
 30
0.0
 10
668.610080549738
 20
-291.5367451801919
 30
0.0
 10
673.5709415406674
 20
-290.2594251241769
 30
0.0
 10
676.4727994622127
 20
-288.6578939936496
 30
0.0
 10
677.8166573145536
 20
-287.9162208160801
 30
0.0
  0
SPLINE
  5
C4
330
1F
100
AcDbEntity
  8
0
  6
Continuous
 62
     7
370
    25
100
AcDbSpline
210
0.0
220
0.0
230
1.0
 70
     8
 71
     3
 72
    15
 73
    11
 74
     0
 42
0.000000001
 43
0.00000001
 40
0.0
 40
0.0
 40
0.0
 40
0.0
 40
0.1624850568979506
 40
0.2739816244401573
 40
0.3863187546102093
 40
0.4949801454006501
 40
0.6045125400144162
 40
0.7169544834613792
 40
0.8304731897316265
 40
1.0
 40
1.0
 40
1.0
 40
1.0
 10
632.9254798165229
 20
-210.1673567708471
 30
0.0
 10
632.3469544089576
 20
-210.5172654091315
 30
0.0
 10
631.3714472825137
 20
-211.1072798938665
 30
0.0
 10
630.3420412541388
 20
-212.6316874520347
 30
0.0
 10
629.5677360831735
 20
-214.1992684409194
 30
0.0
 10
628.9363170986929
 20
-216.0716948934216
 30
0.0
 10
628.4283334291699
 20
-218.2340950261268
 30
0.0
 10
628.0444763238227
 20
-220.7306876590475
 30
0.0
 10
627.7311885466262
 20
-223.9890331016461
 30
0.0
 10
627.685604229455
 20
-226.6798137014823
 30
0.0
 10
627.6583020344482
 20
-228.2914253525009
 30
0.0
  0
LWPOLYLINE
  5
C5
330
1F
100
AcDbEntity
  8
0
  6
Continuous
 62
     7
370
    25
100
AcDbPolyline
 90
      101
 70
   128
 43
0.0
 10
497.5506542961
 20
-153.1818790648
 10
497.4250760623
 20
-148.6399818746
 10
497.0488369606
 20
-144.2609990201
 10
496.423421835
 20
-140.0622123463
 10
495.5512989133
 20
-136.0601925458
 10
494.4359100661
 20
-132.2707337625
 10
493.0816572237
 20
-128.7087912589
 10
491.4938850033
 20
-125.3884223948
 10
489.6788596166
 20
-122.3227311492
 10
487.6437441394
 20
-119.5238164048
 10
485.3965702429
 20
-117.0027241995
 10
482.9462064958
 20
-114.7694041323
 10
480.3023233643
 20
-112.8326700973
 10
477.4753550473
 20
-111.200165499
 10
474.4764582971
 20
-109.878333087
 10
471.3174683893
 20
-108.8723895302
 10
468.0108524137
 20
-108.1863048281
 10
464.569660073
 20
-107.8227866436
 10
461.0074721812
 20
-107.7832696169
 10
457.3383470665
 20
-108.0679097037
 10
453.5767650895
 20
-108.6755835595
 10
449.7375714957
 20
-109.6038929734
 10
445.8359178283
 20
-110.8491743321
 10
441.8872021319
 20
-112.4065130789
 10
437.9070081831
 20
-114.2697631095
 10
433.9110439893
 20
-116.4315710271
 10
429.9150797955
 20
-118.8834051635
 10
425.9348858468
 20
-121.6155892496
 10
421.9861701503
 20
-124.6173406029
 10
418.0845164829
 20
-127.8768126823
 10
414.2453228891
 20
-131.3811418404
 10
410.4837409121
 20
-135.1164980913
 10
406.8146157974
 20
-139.0681396901
 10
403.2524279056
 20
-143.2204713129
 10
399.8112355649
 20
-147.5571056039
 10
396.5046195894
 20
-152.0609278485
 10
393.3456296815
 20
-156.7141635182
 10
390.3467329314
 20
-161.4984484174
 10
387.5197646144
 20
-166.3949011595
 10
384.8758814829
 20
-171.3841976825
 10
382.4255177357
 20
-176.4466475124
 10
380.1783438392
 20
-181.5622714725
 10
378.1432283621
 20
-186.7108805321
 10
376.3282029754
 20
-191.8721554835
 10
374.740430755
 20
-197.0257271324
 10
373.3861779126
 20
-202.151256686
 10
372.2707890654
 20
-207.2285160206
 10
371.3986661436
 20
-212.2374675134
 10
370.773251018
 20
-217.1583431212
 10
370.3970119164
 20
-221.971722396
 10
370.2714336825
 20
-226.6586091289
 10
370.3970119164
 20
-231.2005063191
 10
370.773251018
 20
-235.5794891735
 10
371.3986661436
 20
-239.7782758474
 10
372.2707890654
 20
-243.7802956479
 10
373.3861779126
 20
-247.5697544312
 10
374.740430755
 20
-251.1316969348
 10
376.3282029754
 20
-254.4520657989
 10
378.1432283621
 20
-257.5177570445
 10
380.1783438392
 20
-260.3166717889
 10
382.4255177357
 20
-262.8377639942
 10
384.8758814829
 20
-265.0710840614
 10
387.5197646144
 20
-267.0078180963
 10
390.3467329314
 20
-268.6403226947
 10
393.3456296815
 20
-269.9621551066
 10
396.5046195894
 20
-270.9680986635
 10
399.8112355649
 20
-271.6541833656
 10
403.2524279056
 20
-272.0177015501
 10
406.8146157974
 20
-272.0572185767
 10
410.4837409121
 20
-271.77257849
 10
414.2453228891
 20
-271.1649046341
 10
418.0845164829
 20
-270.2365952203
 10
421.9861701503
 20
-268.9913138616
 10
425.9348858468
 20
-267.4339751147
 10
429.9150797955
 20
-265.5707250842
 10
433.9110439893
 20
-263.4089171666
 10
437.9070081831
 20
-260.9570830301
 10
441.8872021319
 20
-258.2248989441
 10
445.8359178283
 20
-255.2231475908
 10
449.7375714957
 20
-251.9636755114
 10
453.5767650895
 20
-248.4593463532
 10
457.3383470665
 20
-244.7239901024
 10
461.0074721812
 20
-240.7723485036
 10
464.569660073
 20
-236.6200168807
 10
468.0108524137
 20
-232.2833825898
 10
471.3174683893
 20
-227.7795603451
 10
474.4764582971
 20
-223.1263246755
 10
477.4753550473
 20
-218.3420397763
 10
480.3023233643
 20
-213.4455870341
 10
482.9462064958
 20
-208.4562905112
 10
485.3965702429
 20
-203.3938406813
 10
487.6437441394
 20
-198.2782167212
 10
489.6788596166
 20
-193.1296076616
 10
491.4938850033
 20
-187.9683327102
 10
493.0816572237
 20
-182.8147610613
 10
494.4359100661
 20
-177.6892315077
 10
495.5512989133
 20
-172.611972173
 10
496.423421835
 20
-167.6030206802
 10
497.0488369606
 20
-162.6821450725
 10
497.4250760623
 20
-157.8687657977
 10
497.5506542961
 20
-153.1818790648
  0
LWPOLYLINE
  5
C6
330
1F
100
AcDbEntity
  8
0
  6
Continuous
 62
     7
370
    25
100
AcDbPolyline
 90
       14
 70
   128
 43
0.0
 10
821.4055600796
 20
-340.1393366722
 10
821.2799818457
 20
-335.597439482
 10
820.9037427441
 20
-331.2184566275
 10
820.2783276185
 20
-327.0196699537
 10
819.4062046967
 20
-323.0176501532
 10
818.2908158495
 20
-319.2281913699
 10
816.9365630071
 20
-315.6662488663
 10
815.3487907868
 20
-312.3458800022
 10
813.5337654
 20
-309.2801887566
 10
811.4986499229
 20
-306.4812740122
 10
809.2514760264
 20
-303.9601818069
 10
806.8011122792
 20
-301.7268617397
 10
804.1572291477
 20
-299.7901277047
 10
802.7622927414
 20
-298.93330409
  0
LWPOLYLINE
  5
C7
330
1F
100
AcDbEntity
  8
0
  6
Continuous
 62
     7
370
    25
100
AcDbPolyline
 90
       39
 70
   128
 43
0.0
 10
712.7696068042
 20
-454.8220993185
 10
714.2016387148
 20
-455.5977803021
 10
717.200535465
 20
-456.919612714
 10
720.3595253728
 20
-457.9255562709
 10
723.6661413484
 20
-458.611640973
 10
727.1073336891
 20
-458.9751591575
 10
730.6695215809
 20
-459.0146761841
 10
734.3386466956
 20
-458.7300360974
 10
738.1002286726
 20
-458.1223622415
 10
741.9394222664
 20
-457.1940528277
 10
745.8410759338
 20
-455.948771469
 10
749.7897916303
 20
-454.3914327221
 10
753.769985579
 20
-452.5281826916
 10
757.7659497728
 20
-450.366374774
 10
761.7619139666
 20
-447.9145406375
 10
765.7421079153
 20
-445.1823565515
 10
769.6908236118
 20
-442.1806051982
 10
773.5924772792
 20
-438.9211331188
 10
777.431670873
 20
-435.4168039606
 10
781.19325285
 20
-431.6814477098
 10
784.8623779647
 20
-427.729806111
 10
788.4245658565
 20
-423.5774744881
 10
791.8657581972
 20
-419.2408401972
 10
795.1723741727
 20
-414.7370179525
 10
798.3313640806
 20
-410.0837822829
 10
801.3302608307
 20
-405.2994973837
 10
804.1572291477
 20
-400.4030446415
 10
806.8011122792
 20
-395.4137481186
 10
809.2514760264
 20
-390.3512982887
 10
811.4986499229
 20
-385.2356743286
 10
813.5337654
 20
-380.087065269
 10
815.3487907868
 20
-374.9257903176
 10
816.9365630071
 20
-369.7722186687
 10
818.2908158495
 20
-364.6466891151
 10
819.4062046967
 20
-359.5694297804
 10
820.2783276185
 20
-354.5604782876
 10
820.9037427441
 20
-349.6396026799
 10
821.2799818457
 20
-344.8262234051
 10
821.4055600796
 20
-340.1393366722
  0
LWPOLYLINE
  5
C8
330
1F
100
AcDbEntity
  8
0
  6
Continuous
 62
     7
370
    25
100
AcDbPolyline
 90
       92
 70
   128
 43
0.0
 10
485.9541030847
 20
-159.8764255818
 10
485.8300986462
 20
-155.8018231595
 10
485.4586762685
 20
-151.8898105505
 10
484.8416059484
 20
-148.1590302763
 10
483.9818283068
 20
-144.6272612039
 10
482.8834405759
 20
-141.3113338213
 10
481.5516770734
 20
-138.2270500326
 10
479.9928842587
 20
-135.3891078545
 10
478.2144904896
 20
-132.811031374
 10
476.2249706223
 20
-130.5051062994
 10
474.0338056249
 20
-128.482321414
 10
471.6514373965
 20
-126.7523162088
 10
469.0892190067
 20
-125.3233349466
 10
466.3593605928
 20
-124.2021873737
 10
463.4748711734
 20
-123.3942162689
 10
460.4494966542
 20
-122.9032719826
 10
457.2976543226
 20
-122.7316940877
 10
454.0343641424
 20
-122.8803002311
 10
450.6751771777
 20
-123.3483822368
 10
447.2361014839
 20
-124.133709481
 10
443.733525823
 20
-125.2325395216
 10
440.184141563
 20
-126.6396359332
 10
436.6048631363
 20
-128.3482932605
 10
433.0127474347
 20
-130.3503689732
 10
429.4249125252
 20
-132.6363222689
 10
425.8584560751
 20
-135.195259539
 10
422.3303738735
 20
-138.0149862822
 10
418.8574788388
 20
-141.0820652164
 10
415.4563208975
 20
-144.3818803137
 10
412.1431081159
 20
-147.8987064526
 10
408.9336294618
 20
-151.6157843548
 10
405.8431795626
 20
-155.5154004514
 10
402.8864858194
 20
-159.5789712959
 10
400.0776382244
 20
-163.7871321226
 10
397.4300222155
 20
-168.1198291288
 10
394.9562548888
 20
-172.5564150402
 10
392.668124872
 20
-177.0757475045
 10
390.5765361467
 20
-181.6562898444
 10
388.6914560858
 20
-186.2762136898
 10
387.021867954
 20
-190.9135029994
 10
385.5757280993
 20
-195.5460589781
 10
384.3599280366
 20
-200.1518053869
 10
383.3802616069
 20
-204.7087937467
 10
382.6413973668
 20
-209.1953079328
 10
382.146856341
 20
-213.5899676619
 10
381.8989952425
 20
-217.871830379
 10
381.8989952425
 20
-222.0204910585
 10
382.146856341
 20
-226.0161794428
 10
382.6413973668
 20
-229.8398542571
 10
383.3802616069
 20
-233.4732939498
 10
384.3599280366
 20
-236.899183526
 10
385.5757280993
 20
-240.1011970617
 10
387.021867954
 20
-243.0640755042
 10
388.6914560858
 20
-245.7736993885
 10
390.5765361467
 20
-248.2171561228
 10
392.668124872
 20
-250.3828015231
 10
394.9562548888
 20
-252.2603153027
 10
397.4300222155
 20
-253.8407502535
 10
400.0776382244
 20
-255.1165748833
 10
402.8864858194
 20
-256.0817093065
 10
405.8431795626
 20
-256.7315542183
 10
408.9336294618
 20
-257.0630128117
 10
412.1431081159
 20
-257.0745055355
 10
415.4563208975
 20
-256.7659776217
 10
418.8574788388
 20
-256.1388993462
 10
422.3303738735
 20
-255.1962590226
 10
425.8584560751
 20
-253.9425487614
 10
429.4249125252
 20
-252.3837430629
 10
433.0127474347
 20
-250.5272703461
 10
436.6048631363
 20
-248.3819775489
 10
440.184141563
 20
-245.9580879685
 10
443.733525823
 20
-243.2671525425
 10
447.2361014839
 20
-240.3219948038
 10
450.6751771777
 20
-237.1366497701
 10
454.0343641424
 20
-233.7262970611
 10
457.2976543226
 20
-230.1071885606
 10
460.4494966542
 20
-226.2965709687
 10
463.4748711734
 20
-222.3126036135
 10
466.3593605928
 20
-218.1742719139
 10
469.0892190067
 20
-213.9012969049
 10
471.6514373965
 20
-209.5140412583
 10
474.0338056249
 20
-205.0334122453
 10
476.2249706223
 20
-200.4807621036
 10
478.2144904896
 20
-195.8777862844
 10
479.9928842587
 20
-191.2464200635
 10
481.5516770734
 20
-186.6087340103
 10
482.8834405759
 20
-181.9868288107
 10
483.9818283069
 20
-177.4027299477
 10
484.8416059484
 20
-172.8782827402
 10
485.4586762685
 20
-168.4350482394
 10
485.8300986462
 20
-164.0942004811
 10
485.9541030847
 20
-159.8764255818
  0
LWPOLYLINE
  5
C9
330
1F
100
AcDbEntity
  8
0
  6
Continuous
 62
     7
370
    25
100
AcDbPolyline
 90
       65
 70
   128
 43
0.0
 10
767.5240233531
 20
-214.3308466403
 10
767.398722576
 20
-211.3132242127
 10
767.0240269594
 20
-208.1799939407
 10
766.4035450271
 20
-204.9613305446
 10
765.5432523592
 20
-201.6882315125
 10
764.4514340444
 20
-198.3922185773
 10
763.13860489
 20
-195.1050341452
 10
761.6174081583
 20
-191.8583355995
 10
759.9024938055
 20
-188.6833904218
 10
758.0103773942
 20
-185.6107750699
 10
755.9592810398
 20
-182.6700805092
 10
753.7689579215
 20
-179.889627236
 10
751.4605020482
 20
-177.2961925351
 10
749.0561451119
 20
-174.9147526005
 10
746.5790423843
 20
-172.7682420006
 10
744.0530497187
 20
-170.8773328058
 10
741.5024938055
 20
-169.2602355054
 10
738.9519378922
 20
-167.9325236304
 10
736.4259452267
 20
-166.9069837719
 10
733.9488424991
 20
-166.1934924394
 10
731.5444855628
 20
-165.7989209444
 10
729.2360296895
 20
-165.7270692262
 10
727.0457065712
 20
-165.978629256
 10
724.9946102168
 20
-166.5511783733
 10
723.1024938055
 20
-167.4392026171
 10
721.3875794526
 20
-168.6341498284
 10
719.866382721
 20
-170.1245120124
 10
718.5535535665
 20
-171.8959361666
 10
717.4617352518
 20
-173.931362508
 10
716.6014425839
 20
-176.2111887682
 10
715.9809606516
 20
-178.713458974
 10
715.606265035
 20
-181.4140748956
 10
715.4809642578
 20
-184.2870281253
 10
715.606265035
 20
-187.3046505529
 10
715.9809606516
 20
-190.4378808249
 10
716.6014425839
 20
-193.6565442209
 10
717.4617352518
 20
-196.9296432531
 10
718.5535535665
 20
-200.2256561883
 10
719.866382721
 20
-203.5128406203
 10
721.3875794527
 20
-206.7595391661
 10
723.1024938055
 20
-209.9344843438
 10
724.9946102168
 20
-213.0070996957
 10
727.0457065712
 20
-215.9477942564
 10
729.2360296895
 20
-218.7282475296
 10
731.5444855628
 20
-221.3216822305
 10
733.9488424991
 20
-223.7031221651
 10
736.4259452267
 20
-225.849632765
 10
738.9519378922
 20
-227.7405419598
 10
741.5024938055
 20
-229.3576392602
 10
744.0530497187
 20
-230.6853511352
 10
746.5790423843
 20
-231.7108909937
 10
749.0561451119
 20
-232.4243823262
 10
751.4605020482
 20
-232.8189538212
 10
753.7689579215
 20
-232.8908055394
 10
755.9592810398
 20
-232.6392455096
 10
758.0103773942
 20
-232.0666963923
 10
759.9024938055
 20
-231.1786721485
 10
761.6174081583
 20
-229.9837249372
 10
763.13860489
 20
-228.4933627532
 10
764.4514340444
 20
-226.721938599
 10
765.5432523592
 20
-224.6865122576
 10
766.4035450271
 20
-222.4066859974
 10
767.0240269594
 20
-219.9044157916
 10
767.398722576
 20
-217.20379987
 10
767.5240233531
 20
-214.3308466403
  0
LWPOLYLINE
  5
CA
330
1F
100
AcDbEntity
  8
0
  6
Continuous
 62
     7
370
    25
100
AcDbPolyline
 90
       72
 70
   128
 43
0.0
 10
773.3222989589
 20
-217.6781198988
 10
773.1977823998
 20
-214.358769713
 10
772.8252072334
 20
-210.9216341838
 10
772.2074893655
 20
-207.3936135572
 10
771.3494632759
 20
-203.8023193778
 10
770.2578441823
 20
-200.175858392
 10
768.941175484
 20
-196.5426125739
 10
767.4097618988
 20
-192.9310169981
 10
765.6755888145
 20
-189.3693372968
 10
763.7522284866
 20
-185.8854484428
 10
761.6547338175
 20
-182.5066165901
 10
759.3995205469
 20
-179.2592856789
 10
757.0042387763
 20
-176.1688704767
 10
754.4876348334
 20
-173.2595576724
 10
751.8694045559
 20
-170.5541165834
 10
749.1700391459
 20
-168.0737209545
 10
746.4106647976
 20
-165.8377832443
 10
743.6128773564
 20
-163.8638026972
 10
740.7985733027
 20
-162.1672283872
 10
737.9897783813
 20
-160.7613383088
 10
735.2084752208
 20
-159.6571354578
 10
732.4764312894
 20
-158.8632617188
 10
729.8150285353
 20
-158.3859302302
 10
727.2450960433
 20
-158.228876758
 10
724.7867470197
 20
-158.3933304586
 10
722.4592213788
 20
-158.8780042588
 10
720.2807351644
 20
-159.679104929
 10
718.2683379849
 20
-160.7903627702
 10
716.4377795767
 20
-162.2030806832
 10
714.8033865414
 20
-163.9062022349
 10
713.3779502204
 20
-165.8863981898
 10
712.1726265856
 20
-168.12817083
 10
711.1968489288
 20
-170.6139752448
 10
710.458254033
 20
-173.3243566445
 10
709.9626224047
 20
-176.2381026196
 10
709.7138330335
 20
-179.3324091573
 10
709.7138330335
 20
-182.5830591136
 10
709.9626224047
 20
-185.9646117451
 10
710.458254033
 20
-189.4506018177
 10
711.1968489288
 20
-193.0137467324
 10
712.1726265856
 20
-196.6261600494
 10
713.3779502204
 20
-200.2595697364
 10
714.8033865414
 20
-203.8855394363
 10
716.4377795767
 20
-207.47569102
 10
718.2683379849
 20
-211.0019266836
 10
720.2807351644
 20
-214.4366488519
 10
722.4592213788
 20
-217.7529761671
 10
724.7867470197
 20
-220.9249538715
 10
727.2450960433
 20
-223.9277569387
 10
729.8150285353
 20
-226.7378843636
 10
732.4764312894
 20
-229.3333430887
 10
735.2084752208
 20
-231.6938201306
 10
737.9897783813
 20
-233.8008415559
 10
740.7985733027
 20
-235.6379170653
 10
743.6128773564
 20
-237.1906690519
 10
746.4106647976
 20
-238.4469451264
 10
749.1700391459
 20
-239.3969132249
 10
751.8694045559
 20
-240.0331385592
 10
754.4876348334
 20
-240.3506418034
 10
757.0042387763
 20
-240.3469380641
 10
759.3995205469
 20
-240.022056328
 10
761.6547338175
 20
-239.3785392354
 10
763.7522284866
 20
-238.4214231799
 10
765.6755888145
 20
-237.1581988923
 10
767.4097618988
 20
-235.5987528155
 10
768.941175484
 20
-233.7552897294
 10
770.2578441823
 20
-231.6422372321
 10
771.3494632759
 20
-229.2761328244
 10
772.2074893655
 20
-226.6754944813
 10
772.8252072334
 20
-223.8606757239
 10
773.1977823998
 20
-220.8537063256
 10
773.3222989589
 20
-217.6781198988
  0
ENDSEC
  0
SECTION
  2
OBJECTS
  0
DICTIONARY
  5
C
330
0
100
AcDbDictionary
281
     1
  3
ACAD_GROUP
350
D
  3
ACAD_LAYOUT
350
1A
  3
ACAD_MLINESTYLE
350
17
  3
ACAD_PLOTSETTINGS
350
19
  3
ACAD_PLOTSTYLENAME
350
E
  3
ACAD_SCALELIST
350
47
  0
DICTIONARY
  5
D
102
{ACAD_REACTORS
330
C
102
}
330
C
100
AcDbDictionary
281
     1
  0
DICTIONARY
  5
1A
102
{ACAD_REACTORS
330
C
102
}
330
C
100
AcDbDictionary
281
     1
  3
Layout1
350
1E
  3
Layout2
350
26
  3
Model
350
22
  0
DICTIONARY
  5
17
102
{ACAD_REACTORS
330
C
102
}
330
C
100
AcDbDictionary
281
     1
  3
Standard
350
18
  0
DICTIONARY
  5
19
102
{ACAD_REACTORS
330
C
102
}
330
C
100
AcDbDictionary
281
     1
  0
ACDBDICTIONARYWDFLT
  5
E
102
{ACAD_REACTORS
330
C
102
}
330
C
100
AcDbDictionary
281
     1
  3
Normal
350
F
100
AcDbDictionaryWithDefault
340
F
  0
DICTIONARY
  5
47
102
{ACAD_REACTORS
330
C
102
}
330
C
100
AcDbDictionary
281
     1
  3
A0
350
48
  3
A1
350
49
  3
A2
350
4A
  3
A3
350
4B
  3
A4
350
4C
  3
A5
350
4D
  3
A6
350
4E
  3
A7
350
4F
  3
A8
350
50
  3
A9
350
51
  3
B0
350
52
  3
B1
350
53
  3
B2
350
54
  3
B3
350
55
  3
B4
350
56
  3
B5
350
57
  3
B6
350
58
  3
B7
350
59
  3
B8
350
5A
  3
B9
350
5B
  3
C0
350
5C
  3
C1
350
5D
  3
C2
350
5E
  3
C3
350
5F
  3
C4
350
60
  3
C5
350
61
  3
C6
350
62
  3
C7
350
63
  3
C8
350
64
  3
C9
350
65
  3
D0
350
66
  3
D1
350
67
  3
D2
350
68
  0
LAYOUT
  5
1E
102
{ACAD_REACTORS
330
1A
102
}
330
1A
100
AcDbPlotSettings
  1

  2
none_device
  4

  6

 40
0.0
 41
0.0
 42
0.0
 43
0.0
 44
0.0
 45
0.0
 46
0.0
 47
0.0
 48
0.0
 49
0.0
140
0.0
141
0.0
142
1.0
143
1.0
 70
   688
 72
     1
 73
     0
 74
     5
  7

 75
    16
147
1.0
148
0.0
149
0.0
100
AcDbLayout
  1
Layout1
 70
     1
 71
     1
 10
0.0
 20
0.0
 11
420.0
 21
297.0
 12
0.0
 22
0.0
 32
0.0
 14
1.0000000000E+20
 24
1.0000000000E+20
 34
1.0000000000E+20
 15
-1.0000000000E+20
 25
-1.0000000000E+20
 35
-1.0000000000E+20
146
0.0
 13
0.0
 23
0.0
 33
0.0
 16
1.0
 26
0.0
 36
0.0
 17
0.0
 27
1.0
 37
0.0
 76
     0
330
1B
  0
LAYOUT
  5
26
102
{ACAD_REACTORS
330
1A
102
}
330
1A
100
AcDbPlotSettings
  1

  2
none_device
  4

  6

 40
0.0
 41
0.0
 42
0.0
 43
0.0
 44
0.0
 45
0.0
 46
0.0
 47
0.0
 48
0.0
 49
0.0
140
0.0
141
0.0
142
1.0
143
1.0
 70
   688
 72
     1
 73
     0
 74
     5
  7

 75
    16
147
1.0
148
0.0
149
0.0
100
AcDbLayout
  1
Layout2
 70
     1
 71
     2
 10
0.0
 20
0.0
 11
0.0
 21
0.0
 12
0.0
 22
0.0
 32
0.0
 14
0.0
 24
0.0
 34
0.0
 15
0.0
 25
0.0
 35
0.0
146
0.0
 13
0.0
 23
0.0
 33
0.0
 16
1.0
 26
0.0
 36
0.0
 17
0.0
 27
1.0
 37
0.0
 76
     0
330
23
  0
LAYOUT
  5
22
102
{ACAD_REACTORS
330
1A
102
}
330
1A
100
AcDbPlotSettings
  1

  2
none_device
  4
Letter_(8.50_x_11.00_Inches)
  6

 40
6.35
 41
6.35
 42
6.35000508
 43
6.35000508
 44
215.9
 45
279.4
 46
0.0
 47
0.0
 48
0.0
 49
0.0
140
0.0
141
0.0
142
1.0
143
1.0
 70
  1712
 72
     1
 73
     0
 74
     0
  7

 75
     0
147
1.0
148
0.0
149
0.0
100
AcDbLayout
  1
Model
 70
     1
 71
     0
 10
0.0
 20
0.0
 11
279.4
 21
215.9
 12
0.0
 22
0.0
 32
0.0
 14
0.0
 24
0.0
 34
0.0
 15
279.4
 25
215.9
 35
0.0
146
0.0
 13
0.0
 23
0.0
 33
0.0
 16
1.0
 26
0.0
 36
0.0
 17
0.0
 27
1.0
 37
0.0
 76
     0
330
1F
331
29
  0
MLINESTYLE
  5
18
102
{ACAD_REACTORS
330
17
102
}
330
17
100
AcDbMlineStyle
  2
Standard
 70
     0
  3

 62
   256
 51
90.0
 52
90.0
 71
     2
 49
0.5
 62
   256
  6
BYLAYER
 49
-0.5
 62
   256
  6
BYLAYER
  0
ACDBPLACEHOLDER
  5
F
102
{ACAD_REACTORS
330
E
102
}
330
E
  0
SCALE
  5
48
102
{ACAD_REACTORS
330
47
102
}
330
47
100
AcDbScale
 70
     0
300
1:1
140
1.0
141
1.0
290
     1
  0
SCALE
  5
49
102
{ACAD_REACTORS
330
47
102
}
330
47
100
AcDbScale
 70
     0
300
1:2
140
1.0
141
2.0
290
     0
  0
SCALE
  5
4A
102
{ACAD_REACTORS
330
47
102
}
330
47
100
AcDbScale
 70
     0
300
1:4
140
1.0
141
4.0
290
     0
  0
SCALE
  5
4B
102
{ACAD_REACTORS
330
47
102
}
330
47
100
AcDbScale
 70
     0
300
1:5
140
1.0
141
5.0
290
     0
  0
SCALE
  5
4C
102
{ACAD_REACTORS
330
47
102
}
330
47
100
AcDbScale
 70
     0
300
1:8
140
1.0
141
8.0
290
     0
  0
SCALE
  5
4D
102
{ACAD_REACTORS
330
47
102
}
330
47
100
AcDbScale
 70
     0
300
1:10
140
1.0
141
10.0
290
     0
  0
SCALE
  5
4E
102
{ACAD_REACTORS
330
47
102
}
330
47
100
AcDbScale
 70
     0
300
1:16
140
1.0
141
16.0
290
     0
  0
SCALE
  5
4F
102
{ACAD_REACTORS
330
47
102
}
330
47
100
AcDbScale
 70
     0
300
1:20
140
1.0
141
20.0
290
     0
  0
SCALE
  5
50
102
{ACAD_REACTORS
330
47
102
}
330
47
100
AcDbScale
 70
     0
300
1:30
140
1.0
141
30.0
290
     0
  0
SCALE
  5
51
102
{ACAD_REACTORS
330
47
102
}
330
47
100
AcDbScale
 70
     0
300
1:40
140
1.0
141
40.0
290
     0
  0
SCALE
  5
52
102
{ACAD_REACTORS
330
47
102
}
330
47
100
AcDbScale
 70
     0
300
1:50
140
1.0
141
50.0
290
     0
  0
SCALE
  5
53
102
{ACAD_REACTORS
330
47
102
}
330
47
100
AcDbScale
 70
     0
300
1:100
140
1.0
141
100.0
290
     0
  0
SCALE
  5
54
102
{ACAD_REACTORS
330
47
102
}
330
47
100
AcDbScale
 70
     0
300
2:1
140
2.0
141
1.0
290
     0
  0
SCALE
  5
55
102
{ACAD_REACTORS
330
47
102
}
330
47
100
AcDbScale
 70
     0
300
4:1
140
4.0
141
1.0
290
     0
  0
SCALE
  5
56
102
{ACAD_REACTORS
330
47
102
}
330
47
100
AcDbScale
 70
     0
300
8:1
140
8.0
141
1.0
290
     0
  0
SCALE
  5
57
102
{ACAD_REACTORS
330
47
102
}
330
47
100
AcDbScale
 70
     0
300
10:1
140
10.0
141
1.0
290
     0
  0
SCALE
  5
58
102
{ACAD_REACTORS
330
47
102
}
330
47
100
AcDbScale
 70
     0
300
100:1
140
100.0
141
1.0
290
     0
  0
SCALE
  5
59
102
{ACAD_REACTORS
330
47
102
}
330
47
100
AcDbScale
 70
     0
300
1/128" = 1'-0"
140
0.0078125
141
12.0
290
     0
  0
SCALE
  5
5A
102
{ACAD_REACTORS
330
47
102
}
330
47
100
AcDbScale
 70
     0
300
1/64" = 1'-0"
140
0.015625
141
12.0
290
     0
  0
SCALE
  5
5B
102
{ACAD_REACTORS
330
47
102
}
330
47
100
AcDbScale
 70
     0
300
1/32" = 1'-0"
140
0.03125
141
12.0
290
     0
  0
SCALE
  5
5C
102
{ACAD_REACTORS
330
47
102
}
330
47
100
AcDbScale
 70
     0
300
1/16" = 1'-0"
140
0.0625
141
12.0
290
     0
  0
SCALE
  5
5D
102
{ACAD_REACTORS
330
47
102
}
330
47
100
AcDbScale
 70
     0
300
3/32" = 1'-0"
140
0.09375
141
12.0
290
     0
  0
SCALE
  5
5E
102
{ACAD_REACTORS
330
47
102
}
330
47
100
AcDbScale
 70
     0
300
1/8" = 1'-0"
140
0.125
141
12.0
290
     0
  0
SCALE
  5
5F
102
{ACAD_REACTORS
330
47
102
}
330
47
100
AcDbScale
 70
     0
300
3/16" = 1'-0"
140
0.1875
141
12.0
290
     0
  0
SCALE
  5
60
102
{ACAD_REACTORS
330
47
102
}
330
47
100
AcDbScale
 70
     0
300
1/4" = 1'-0"
140
0.25
141
12.0
290
     0
  0
SCALE
  5
61
102
{ACAD_REACTORS
330
47
102
}
330
47
100
AcDbScale
 70
     0
300
3/8" = 1'-0"
140
0.375
141
12.0
290
     0
  0
SCALE
  5
62
102
{ACAD_REACTORS
330
47
102
}
330
47
100
AcDbScale
 70
     0
300
1/2" = 1'-0"
140
0.5
141
12.0
290
     0
  0
SCALE
  5
63
102
{ACAD_REACTORS
330
47
102
}
330
47
100
AcDbScale
 70
     0
300
3/4" = 1'-0"
140
0.75
141
12.0
290
     0
  0
SCALE
  5
64
102
{ACAD_REACTORS
330
47
102
}
330
47
100
AcDbScale
 70
     0
300
1" = 1'-0"
140
1.0
141
12.0
290
     0
  0
SCALE
  5
65
102
{ACAD_REACTORS
330
47
102
}
330
47
100
AcDbScale
 70
     0
300
1-1/2" = 1'-0"
140
1.5
141
12.0
290
     0
  0
SCALE
  5
66
102
{ACAD_REACTORS
330
47
102
}
330
47
100
AcDbScale
 70
     0
300
3" = 1'-0"
140
3.0
141
12.0
290
     0
  0
SCALE
  5
67
102
{ACAD_REACTORS
330
47
102
}
330
47
100
AcDbScale
 70
     0
300
6" = 1'-0"
140
6.0
141
12.0
290
     0
  0
SCALE
  5
68
102
{ACAD_REACTORS
330
47
102
}
330
47
100
AcDbScale
 70
     0
300
1'-0" = 1'-0"
140
12.0
141
12.0
290
     0
  0
ENDSEC
  0
EOF
